ISO-10303-21;
HEADER;
FILE_DESCRIPTION (( 'STEP AP203' ),
    '1' );
FILE_NAME ('BK7-BSC-20-900-1200.STEP',
    '2020-12-22T03:18:22',
    ( '' ),
    ( '' ),
    'SwSTEP 2.0',
    'SolidWorks 2020',
    '' );
FILE_SCHEMA (( 'CONFIG_CONTROL_DESIGN' ));
ENDSEC;

DATA;
#1 = AXIS2_PLACEMENT_3D ( 'NONE', #218, #163, #184 ) ;
#2 = PLANE ( 'NONE',  #226 ) ;
#3 = EDGE_CURVE ( 'NONE', #45, #291, #254, .T. ) ;
#4 = PLANE ( 'NONE',  #149 ) ;
#5 = VECTOR ( 'NONE', #115, 1000.000000000000000 ) ;
#6 = VERTEX_POINT ( 'NONE', #72 ) ;
#7 = FACE_OUTER_BOUND ( 'NONE', #17, .T. ) ;
#8 = PLANE ( 'NONE',  #121 ) ;
#9 = CARTESIAN_POINT ( 'NONE',  ( 10.00000000000000178, 9.999999999999998224, 10.00000000000000000 ) ) ;
#10 = PERSON_AND_ORGANIZATION_ROLE ( 'design_supplier' ) ;
#11 = ORIENTED_EDGE ( 'NONE', *, *, #313, .F. ) ;
#12 = CC_DESIGN_APPROVAL ( #142, ( #215 ) ) ;
#13 = VECTOR ( 'NONE', #120, 1000.000000000000000 ) ;
#14 = DATE_TIME_ROLE ( 'creation_date' ) ;
#15 = ORIENTED_EDGE ( 'NONE', *, *, #22, .T. ) ;
#16 = EDGE_CURVE ( 'NONE', #291, #276, #253, .T. ) ;
#17 = EDGE_LOOP ( 'NONE', ( #247, #90, #140, #217 ) ) ;
#18 = EDGE_CURVE ( 'NONE', #192, #308, #144, .T. ) ;
#19 = ORIENTED_EDGE ( 'NONE', *, *, #3, .T. ) ;
#20 = ORIENTED_EDGE ( 'NONE', *, *, #106, .F. ) ;
#21 = DIRECTION ( 'NONE',  ( 0.000000000000000000, -0.000000000000000000, 1.000000000000000000 ) ) ;
#22 = EDGE_CURVE ( 'NONE', #308, #6, #198, .T. ) ;
#23 = CC_DESIGN_SECURITY_CLASSIFICATION ( #215, ( #44 ) ) ;
#24 = PERSON_AND_ORGANIZATION ( #92, #81 ) ;
#25 = LINE ( 'NONE', #277, #224 ) ;
#26 = PERSON_AND_ORGANIZATION_ROLE ( 'classification_officer' ) ;
#27 = LINE ( 'NONE', #50, #5 ) ;
#28 = VECTOR ( 'NONE', #132, 1000.000000000000000 ) ;
#29 = CC_DESIGN_PERSON_AND_ORGANIZATION_ASSIGNMENT ( #305, #266, ( #44 ) ) ;
#30 = DIRECTION ( 'NONE',  ( -1.000000000000000000, 0.000000000000000000, 0.000000000000000000 ) ) ;
#31 = EDGE_CURVE ( 'NONE', #164, #69, #27, .T. ) ;
#32 =( NAMED_UNIT ( * ) PLANE_ANGLE_UNIT ( ) SI_UNIT ( $, .RADIAN. ) );
#33 = CARTESIAN_POINT ( 'NONE',  ( 10.00000000000000178, -10.00000000000000000, 10.00000000000000000 ) ) ;
#34 = CARTESIAN_POINT ( 'NONE',  ( 10.00000000000000000, 10.00000000000000000, 10.00000000000000000 ) ) ;
#35 = FACE_OUTER_BOUND ( 'NONE', #288, .T. ) ;
#36 = APPROVAL_DATE_TIME ( #157, #255 ) ;
#37 = LINE ( 'NONE', #239, #60 ) ;
#38 = EDGE_LOOP ( 'NONE', ( #15, #159, #66, #146 ) ) ;
#39 = ORIENTED_EDGE ( 'NONE', *, *, #31, .F. ) ;
#40 = APPLICATION_PROTOCOL_DEFINITION ( 'international standard', 'config_control_design', 1994, #310 ) ;
#41 = COORDINATED_UNIVERSAL_TIME_OFFSET ( 8, 0, .AHEAD. ) ;
#42 = VECTOR ( 'NONE', #73, 1000.000000000000000 ) ;
#43 = ORIENTED_EDGE ( 'NONE', *, *, #279, .T. ) ;
#44 = PRODUCT_DEFINITION_FORMATION_WITH_SPECIFIED_SOURCE ( 'ANY', '', #124, .NOT_KNOWN. ) ;
#45 = VERTEX_POINT ( 'NONE', #148 ) ;
#46 = ADVANCED_FACE ( 'NONE', ( #172 ), #2, .F. ) ;
#47 = PLANE ( 'NONE',  #86 ) ;
#48 = ORIENTED_EDGE ( 'NONE', *, *, #301, .T. ) ;
#49 = CARTESIAN_POINT ( 'NONE',  ( 10.00000000000000178, 9.999999999999998224, 10.00000000000000000 ) ) ;
#50 = CARTESIAN_POINT ( 'NONE',  ( -9.999999999999998224, 10.00000000000000355, 10.00000000000000000 ) ) ;
#51 = VECTOR ( 'NONE', #315, 1000.000000000000000 ) ;
#52 = ADVANCED_FACE ( 'NONE', ( #294 ), #197, .T. ) ;
#53 = CARTESIAN_POINT ( 'NONE',  ( 10.00000000000000178, 9.999999999999998224, 10.00000000000000000 ) ) ;
#54 = CARTESIAN_POINT ( 'NONE',  ( -9.999999999999998224, 10.00000000000000355, 10.00000000000000000 ) ) ;
#55 = CC_DESIGN_PERSON_AND_ORGANIZATION_ASSIGNMENT ( #24, #26, ( #215 ) ) ;
#56 = LINE ( 'NONE', #89, #171 ) ;
#57 = EDGE_LOOP ( 'NONE', ( #20, #188, #221 ) ) ;
#58 = CARTESIAN_POINT ( 'NONE',  ( 10.00000000000000178, 9.999999999999998224, 10.00000000000000000 ) ) ;
#59 = VECTOR ( 'NONE', #273, 1000.000000000000000 ) ;
#60 = VECTOR ( 'NONE', #212, 1000.000000000000000 ) ;
#61 = DIRECTION ( 'NONE',  ( 1.000000000000000000, 0.000000000000000000, 0.000000000000000000 ) ) ;
#62 = CARTESIAN_POINT ( 'NONE',  ( -10.00000000000000178, -9.999999999999996447, -10.00000000000000000 ) ) ;
#63 = DATE_AND_TIME ( #138, #303 ) ;
#64 = ORIENTED_EDGE ( 'NONE', *, *, #31, .T. ) ;
#65 = PRODUCT_DEFINITION ( 'UNKNOWN', '', #44, #131 ) ;
#66 = ORIENTED_EDGE ( 'NONE', *, *, #281, .F. ) ;
#67 = ORIENTED_EDGE ( 'NONE', *, *, #16, .T. ) ;
#68 = LOCAL_TIME ( 11, 18, 22.00000000000000000, #195 ) ;
#69 = VERTEX_POINT ( 'NONE', #201 ) ;
#70 = CALENDAR_DATE ( 2020, 22, 12 ) ;
#71 = APPLICATION_CONTEXT ( 'configuration controlled 3d designs of mechanical parts and assemblies' ) ;
#72 = CARTESIAN_POINT ( 'NONE',  ( 10.00000000000000178, -10.00000000000000000, -10.00000000000000000 ) ) ;
#73 = DIRECTION ( 'NONE',  ( 1.000000000000000000, 0.000000000000000000, 0.000000000000000000 ) ) ;
#74 = ADVANCED_FACE ( 'NONE', ( #173 ), #47, .F. ) ;
#75 = PERSON_AND_ORGANIZATION ( #92, #81 ) ;
#76 = DIRECTION ( 'NONE',  ( -0.000000000000000000, 0.000000000000000000, 1.000000000000000000 ) ) ;
#77 = EDGE_CURVE ( 'NONE', #269, #164, #25, .T. ) ;
#78 = CARTESIAN_POINT ( 'NONE',  ( 10.00000000000000000, 10.00000000000000000, 10.00000000000000000 ) ) ;
#79 = MANIFOLD_SOLID_BREP ( 'Í¹Ì¨-À', #160 ) ;
#80 = CARTESIAN_POINT ( 'NONE',  ( 10.00000000000000178, 9.999999999999998224, 10.00000000000000000 ) ) ;
#81 = ORGANIZATION ( 'UNSPECIFIED', 'UNSPECIFIED', '' ) ;
#82 = CC_DESIGN_DATE_AND_TIME_ASSIGNMENT ( #63, #14, ( #65 ) ) ;
#83 = CARTESIAN_POINT ( 'NONE',  ( 10.00000000000000178, -10.00000000000000000, 10.00000000000000000 ) ) ;
#84 = LINE ( 'NONE', #180, #127 ) ;
#85 = LINE ( 'NONE', #83, #257 ) ;
#86 = AXIS2_PLACEMENT_3D ( 'NONE', #141, #168, #251 ) ;
#87 = CC_DESIGN_APPROVAL ( #255, ( #44 ) ) ;
#88 = APPROVAL_ROLE ( '' ) ;
#89 = CARTESIAN_POINT ( 'NONE',  ( -9.999999999999998224, -10.00000000000000000, 10.00000000000000000 ) ) ;
#90 = ORIENTED_EDGE ( 'NONE', *, *, #236, .F. ) ;
#91 = ORIENTED_EDGE ( 'NONE', *, *, #236, .T. ) ;
#92 = PERSON ( 'UNSPECIFIED', 'UNSPECIFIED', 'UNSPECIFIED', ('UNSPECIFIED'), ('UNSPECIFIED'), ('UNSPECIFIED') ) ;
#93 = VECTOR ( 'NONE', #205, 1000.000000000000000 ) ;
#94 = APPROVAL_PERSON_ORGANIZATION ( #187, #208, #109 ) ;
#95 = VERTEX_POINT ( 'NONE', #49 ) ;
#96 = APPROVAL_DATE_TIME ( #137, #208 ) ;
#97 = ORIENTED_EDGE ( 'NONE', *, *, #281, .T. ) ;
#98 = ORIENTED_EDGE ( 'NONE', *, *, #106, .T. ) ;
#99 = FACE_OUTER_BOUND ( 'NONE', #38, .T. ) ;
#100 = CARTESIAN_POINT ( 'NONE',  ( 10.00000000000000178, 9.999999999999998224, -10.00000000000000000 ) ) ;
#101 = LINE ( 'NONE', #297, #316 ) ;
#102 = DIRECTION ( 'NONE',  ( 1.000000000000000000, -2.220446049250313081E-16, 0.000000000000000000 ) ) ;
#103 = VECTOR ( 'NONE', #298, 1000.000000000000000 ) ;
#104 = DIRECTION ( 'NONE',  ( 1.000000000000000000, 0.000000000000000000, 0.000000000000000000 ) ) ;
#105 = ADVANCED_FACE ( 'NONE', ( #256 ), #117, .T. ) ;
#106 = EDGE_CURVE ( 'NONE', #45, #269, #222, .T. ) ;
#107 = CARTESIAN_POINT ( 'NONE',  ( 10.00000000000000178, 9.999999999999998224, 10.00000000000000000 ) ) ;
#108 = CARTESIAN_POINT ( 'NONE',  ( -10.00000000000000178, -9.999999999999996447, 10.00000000000000000 ) ) ;
#109 = APPROVAL_ROLE ( '' ) ;
#110 = DIRECTION ( 'NONE',  ( -0.000000000000000000, -0.000000000000000000, -1.000000000000000000 ) ) ;
#111 = SECURITY_CLASSIFICATION_LEVEL ( 'unclassified' ) ;
#112 = CC_DESIGN_PERSON_AND_ORGANIZATION_ASSIGNMENT ( #270, #220, ( #124 ) ) ;
#113 = ORIENTED_EDGE ( 'NONE', *, *, #22, .F. ) ;
#114 = ORIENTED_EDGE ( 'NONE', *, *, #3, .F. ) ;
#115 = DIRECTION ( 'NONE',  ( -0.000000000000000000, 0.000000000000000000, -1.000000000000000000 ) ) ;
#116 = DATE_TIME_ROLE ( 'classification_date' ) ;
#117 = PLANE ( 'NONE',  #258 ) ;
#118 = APPROVAL_DATE_TIME ( #225, #142 ) ;
#119 = DIRECTION ( 'NONE',  ( 2.220446049250313081E-16, 1.000000000000000000, 0.000000000000000000 ) ) ;
#120 = DIRECTION ( 'NONE',  ( -0.7071067811865475727, -0.7071067811865474617, 0.000000000000000000 ) ) ;
#121 = AXIS2_PLACEMENT_3D ( 'NONE', #58, #156, #154 ) ;
#122 = DIRECTION ( 'NONE',  ( 0.000000000000000000, 0.000000000000000000, 1.000000000000000000 ) ) ;
#123 = DIRECTION ( 'NONE',  ( -0.000000000000000000, -0.000000000000000000, -1.000000000000000000 ) ) ;
#124 = PRODUCT ( 'BK7-BSC-20-900-1200', 'BK7-BSC-20-900-1200', '', ( #306 ) ) ;
#125 = DIRECTION ( 'NONE',  ( -2.220446049250313081E-16, -1.000000000000000000, 0.000000000000000000 ) ) ;
#126 = VECTOR ( 'NONE', #123, 1000.000000000000000 ) ;
#127 = VECTOR ( 'NONE', #158, 1000.000000000000000 ) ;
#128 = ADVANCED_FACE ( 'NONE', ( #99 ), #196, .F. ) ;
#129 = ORIENTED_EDGE ( 'NONE', *, *, #18, .F. ) ;
#130 = DIRECTION ( 'NONE',  ( 0.000000000000000000, 0.000000000000000000, 1.000000000000000000 ) ) ;
#131 = DESIGN_CONTEXT ( 'detailed design', #71, 'design' ) ;
#132 = DIRECTION ( 'NONE',  ( 1.000000000000000000, -2.220446049250313081E-16, 0.000000000000000000 ) ) ;
#133 = PERSON_AND_ORGANIZATION ( #92, #81 ) ;
#134 = DIRECTION ( 'NONE',  ( 2.220446049250313081E-16, 1.000000000000000000, 0.000000000000000000 ) ) ;
#135 = APPROVAL_PERSON_ORGANIZATION ( #75, #142, #271 ) ;
#136 = PERSON_AND_ORGANIZATION_ROLE ( 'creator' ) ;
#137 = DATE_AND_TIME ( #245, #181 ) ;
#138 = CALENDAR_DATE ( 2020, 22, 12 ) ;
#139 = ORIENTED_EDGE ( 'NONE', *, *, #243, .T. ) ;
#140 = ORIENTED_EDGE ( 'NONE', *, *, #223, .F. ) ;
#141 = CARTESIAN_POINT ( 'NONE',  ( 0.000000000000000000, 0.000000000000000000, -10.00000000000000000 ) ) ;
#142 = APPROVAL ( #169, 'UNSPECIFIED' ) ;
#143 = DATE_AND_TIME ( #70, #176 ) ;
#144 = LINE ( 'NONE', #100, #59 ) ;
#145 = PRODUCT_DEFINITION_SHAPE ( 'NONE', 'NONE',  #65 ) ;
#146 = ORIENTED_EDGE ( 'NONE', *, *, #313, .T. ) ;
#147 = EDGE_CURVE ( 'NONE', #6, #192, #101, .T. ) ;
#148 = CARTESIAN_POINT ( 'NONE',  ( 10.00000000000000000, 10.00000000000000000, 10.00000000000000000 ) ) ;
#149 = AXIS2_PLACEMENT_3D ( 'NONE', #282, #125, #130 ) ;
#150 = CARTESIAN_POINT ( 'NONE',  ( 10.00000000000000178, 9.999999999999998224, -10.00000000000000000 ) ) ;
#151 = DIRECTION ( 'NONE',  ( -0.000000000000000000, 0.000000000000000000, 1.000000000000000000 ) ) ;
#152 = LINE ( 'NONE', #235, #190 ) ;
#153 = EDGE_LOOP ( 'NONE', ( #48, #97, #263 ) ) ;
#154 = DIRECTION ( 'NONE',  ( 0.7071067811865475727, 0.7071067811865474617, 0.000000000000000000 ) ) ;
#155 = PRODUCT_RELATED_PRODUCT_CATEGORY ( 'detail', '', ( #124 ) ) ;
#156 = DIRECTION ( 'NONE',  ( 0.7071067811865474617, -0.7071067811865475727, 0.000000000000000000 ) ) ;
#157 = DATE_AND_TIME ( #182, #232 ) ;
#158 = DIRECTION ( 'NONE',  ( 1.000000000000000000, -2.220446049250313081E-16, 0.000000000000000000 ) ) ;
#159 = ORIENTED_EDGE ( 'NONE', *, *, #264, .F. ) ;
#160 = CLOSED_SHELL ( 'NONE', ( #290, #128, #200, #52, #186 ) ) ;
#161 =( GEOMETRIC_REPRESENTATION_CONTEXT ( 3 ) GLOBAL_UNCERTAINTY_ASSIGNED_CONTEXT ( ( #230 ) ) GLOBAL_UNIT_ASSIGNED_CONTEXT ( ( #280, #32, #268 ) ) REPRESENTATION_CONTEXT ( 'NONE', 'WORKASPACE' ) );
#162 = PERSON_AND_ORGANIZATION ( #92, #81 ) ;
#163 = DIRECTION ( 'NONE',  ( 0.000000000000000000, 0.000000000000000000, 1.000000000000000000 ) ) ;
#164 = VERTEX_POINT ( 'NONE', #54 ) ;
#165 = EDGE_LOOP ( 'NONE', ( #129, #246, #113 ) ) ;
#166 = DIRECTION ( 'NONE',  ( -0.000000000000000000, 0.000000000000000000, -1.000000000000000000 ) ) ;
#167 = CALENDAR_DATE ( 2020, 22, 12 ) ;
#168 = DIRECTION ( 'NONE',  ( 0.000000000000000000, -0.000000000000000000, 1.000000000000000000 ) ) ;
#169 = APPROVAL_STATUS ( 'not_yet_approved' ) ;
#170 = AXIS2_PLACEMENT_3D ( 'NONE', #204, #211, #265 ) ;
#171 = VECTOR ( 'NONE', #61, 1000.000000000000000 ) ;
#172 = FACE_OUTER_BOUND ( 'NONE', #286, .T. ) ;
#173 = FACE_OUTER_BOUND ( 'NONE', #289, .T. ) ;
#174 = LINE ( 'NONE', #53, #126 ) ;
#175 = ADVANCED_BREP_SHAPE_REPRESENTATION ( 'BK7-BSC-20-900-1200', ( #79, #194, #1 ), #161 ) ;
#176 = LOCAL_TIME ( 11, 18, 22.00000000000000000, #317 ) ;
#177 = CARTESIAN_POINT ( 'NONE',  ( -9.999999999999998224, -10.00000000000000000, 10.00000000000000000 ) ) ;
#178 = CC_DESIGN_PERSON_AND_ORGANIZATION_ASSIGNMENT ( #133, #10, ( #44 ) ) ;
#179 = FACE_OUTER_BOUND ( 'NONE', #250, .T. ) ;
#180 = CARTESIAN_POINT ( 'NONE',  ( 10.00000000000000000, 10.00000000000000000, -10.00000000000000000 ) ) ;
#181 = LOCAL_TIME ( 11, 18, 22.00000000000000000, #283 ) ;
#182 = CALENDAR_DATE ( 2020, 22, 12 ) ;
#183 = CARTESIAN_POINT ( 'NONE',  ( -9.999999999999998224, -10.00000000000000000, -10.00000000000000000 ) ) ;
#184 = DIRECTION ( 'NONE',  ( 1.000000000000000000, 0.000000000000000000, 0.000000000000000000 ) ) ;
#185 = ORIENTED_EDGE ( 'NONE', *, *, #243, .F. ) ;
#186 = ADVANCED_FACE ( 'NONE', ( #203 ), #238, .F. ) ;
#187 = PERSON_AND_ORGANIZATION ( #92, #81 ) ;
#188 = ORIENTED_EDGE ( 'NONE', *, *, #248, .F. ) ;
#189 = AXIS2_PLACEMENT_3D ( 'NONE', #107, #30, #122 ) ;
#190 = VECTOR ( 'NONE', #134, 1000.000000000000000 ) ;
#191 = ORIENTED_EDGE ( 'NONE', *, *, #285, .F. ) ;
#192 = VERTEX_POINT ( 'NONE', #150 ) ;
#193 = VERTEX_POINT ( 'NONE', #33 ) ;
#194 = MANIFOLD_SOLID_BREP ( '¾µÏ', #252 ) ;
#195 = COORDINATED_UNIVERSAL_TIME_OFFSET ( 8, 0, .AHEAD. ) ;
#196 = PLANE ( 'NONE',  #206 ) ;
#197 = PLANE ( 'NONE',  #231 ) ;
#198 = LINE ( 'NONE', #229, #42 ) ;
#199 = DIRECTION ( 'NONE',  ( 0.000000000000000000, 0.000000000000000000, 1.000000000000000000 ) ) ;
#200 = ADVANCED_FACE ( 'NONE', ( #7 ), #210, .F. ) ;
#201 = CARTESIAN_POINT ( 'NONE',  ( -9.999999999999998224, 10.00000000000000355, -10.00000000000000000 ) ) ;
#202 = CC_DESIGN_PERSON_AND_ORGANIZATION_ASSIGNMENT ( #162, #136, ( #65 ) ) ;
#203 = FACE_OUTER_BOUND ( 'NONE', #165, .T. ) ;
#204 = CARTESIAN_POINT ( 'NONE',  ( 10.00000000000000000, 10.00000000000000000, 10.00000000000000000 ) ) ;
#205 = DIRECTION ( 'NONE',  ( -0.000000000000000000, 1.000000000000000000, -0.000000000000000000 ) ) ;
#206 = AXIS2_PLACEMENT_3D ( 'NONE', #292, #318, #320 ) ;
#207 = CARTESIAN_POINT ( 'NONE',  ( -10.00000000000000178, -9.999999999999996447, 10.00000000000000000 ) ) ;
#208 = APPROVAL ( #311, 'UNSPECIFIED' ) ;
#209 = ORIENTED_EDGE ( 'NONE', *, *, #285, .T. ) ;
#210 = PLANE ( 'NONE',  #189 ) ;
#211 = DIRECTION ( 'NONE',  ( -0.7071067811865474617, 0.7071067811865475727, 0.000000000000000000 ) ) ;
#212 = DIRECTION ( 'NONE',  ( -0.000000000000000000, -0.000000000000000000, -1.000000000000000000 ) ) ;
#213 = PERSON_AND_ORGANIZATION ( #92, #81 ) ;
#214 = LINE ( 'NONE', #34, #28 ) ;
#215 = SECURITY_CLASSIFICATION ( '', '', #111 ) ;
#216 = COORDINATED_UNIVERSAL_TIME_OFFSET ( 8, 0, .AHEAD. ) ;
#217 = ORIENTED_EDGE ( 'NONE', *, *, #264, .T. ) ;
#218 = CARTESIAN_POINT ( 'NONE',  ( 0.000000000000000000, 0.000000000000000000, 0.000000000000000000 ) ) ;
#219 = ORIENTED_EDGE ( 'NONE', *, *, #248, .T. ) ;
#220 = PERSON_AND_ORGANIZATION_ROLE ( 'design_owner' ) ;
#221 = ORIENTED_EDGE ( 'NONE', *, *, #77, .F. ) ;
#222 = LINE ( 'NONE', #228, #51 ) ;
#223 = EDGE_CURVE ( 'NONE', #193, #95, #260, .T. ) ;
#224 = VECTOR ( 'NONE', #275, 1000.000000000000000 ) ;
#225 = DATE_AND_TIME ( #167, #68 ) ;
#226 = AXIS2_PLACEMENT_3D ( 'NONE', #321, #102, #199 ) ;
#227 = CARTESIAN_POINT ( 'NONE',  ( 0.000000000000000000, 0.000000000000000000, 10.00000000000000000 ) ) ;
#228 = CARTESIAN_POINT ( 'NONE',  ( 10.00000000000000000, 10.00000000000000000, 10.00000000000000000 ) ) ;
#229 = CARTESIAN_POINT ( 'NONE',  ( -9.999999999999998224, -10.00000000000000000, -10.00000000000000000 ) ) ;
#230 = UNCERTAINTY_MEASURE_WITH_UNIT (LENGTH_MEASURE( 1.000000000000000082E-05 ), #280, 'distance_accuracy_value', 'NONE');
#231 = AXIS2_PLACEMENT_3D ( 'NONE', #233, #76, #104 ) ;
#232 = LOCAL_TIME ( 11, 18, 22.00000000000000000, #216 ) ;
#233 = CARTESIAN_POINT ( 'NONE',  ( 0.000000000000000000, 0.000000000000000000, 10.00000000000000000 ) ) ;
#234 = DIRECTION ( 'NONE',  ( -0.000000000000000000, 1.000000000000000000, -0.000000000000000000 ) ) ;
#235 = CARTESIAN_POINT ( 'NONE',  ( -10.00000000000000178, -9.999999999999996447, -10.00000000000000000 ) ) ;
#236 = EDGE_CURVE ( 'NONE', #95, #192, #174, .T. ) ;
#237 = ORIENTED_EDGE ( 'NONE', *, *, #16, .F. ) ;
#238 = PLANE ( 'NONE',  #295 ) ;
#239 = CARTESIAN_POINT ( 'NONE',  ( -9.999999999999998224, -10.00000000000000000, 10.00000000000000000 ) ) ;
#240 = LINE ( 'NONE', #9, #103 ) ;
#241 = ADVANCED_FACE ( 'NONE', ( #35 ), #304, .F. ) ;
#242 = CARTESIAN_POINT ( 'NONE',  ( 10.00000000000000000, 10.00000000000000000, -10.00000000000000000 ) ) ;
#243 = EDGE_CURVE ( 'NONE', #276, #69, #152, .T. ) ;
#244 = LINE ( 'NONE', #207, #296 ) ;
#245 = CALENDAR_DATE ( 2020, 22, 12 ) ;
#246 = ORIENTED_EDGE ( 'NONE', *, *, #147, .F. ) ;
#247 = ORIENTED_EDGE ( 'NONE', *, *, #147, .T. ) ;
#248 = EDGE_CURVE ( 'NONE', #164, #45, #214, .T. ) ;
#249 = EDGE_LOOP ( 'NONE', ( #191, #39, #219, #19 ) ) ;
#250 = EDGE_LOOP ( 'NONE', ( #314, #11, #284, #91 ) ) ;
#251 = DIRECTION ( 'NONE',  ( 2.220446049250313081E-16, 1.000000000000000000, 0.000000000000000000 ) ) ;
#252 = CLOSED_SHELL ( 'NONE', ( #241, #46, #293, #105, #74 ) ) ;
#253 = LINE ( 'NONE', #278, #13 ) ;
#254 = LINE ( 'NONE', #78, #307 ) ;
#255 = APPROVAL ( #302, 'UNSPECIFIED' ) ;
#256 = FACE_OUTER_BOUND ( 'NONE', #57, .T. ) ;
#257 = VECTOR ( 'NONE', #110, 1000.000000000000000 ) ;
#258 = AXIS2_PLACEMENT_3D ( 'NONE', #227, #21, #119 ) ;
#259 = CC_DESIGN_APPROVAL ( #208, ( #65 ) ) ;
#260 = LINE ( 'NONE', #80, #93 ) ;
#261 = DIRECTION ( 'NONE',  ( 1.000000000000000000, 0.000000000000000000, 0.000000000000000000 ) ) ;
#262 = FACE_OUTER_BOUND ( 'NONE', #249, .T. ) ;
#263 = ORIENTED_EDGE ( 'NONE', *, *, #223, .T. ) ;
#264 = EDGE_CURVE ( 'NONE', #193, #6, #85, .T. ) ;
#265 = DIRECTION ( 'NONE',  ( 0.7071067811865475727, 0.7071067811865474617, 0.000000000000000000 ) ) ;
#266 = PERSON_AND_ORGANIZATION_ROLE ( 'creator' ) ;
#267 = ORIENTED_EDGE ( 'NONE', *, *, #77, .T. ) ;
#268 =( NAMED_UNIT ( * ) SI_UNIT ( $, .STERADIAN. ) SOLID_ANGLE_UNIT ( ) );
#269 = VERTEX_POINT ( 'NONE', #108 ) ;
#270 = PERSON_AND_ORGANIZATION ( #92, #81 ) ;
#271 = APPROVAL_ROLE ( '' ) ;
#272 = ORIENTED_EDGE ( 'NONE', *, *, #279, .F. ) ;
#273 = DIRECTION ( 'NONE',  ( -0.7071067811865475727, -0.7071067811865474617, 0.000000000000000000 ) ) ;
#274 = SHAPE_DEFINITION_REPRESENTATION ( #145, #175 ) ;
#275 = DIRECTION ( 'NONE',  ( 2.220446049250313081E-16, 1.000000000000000000, 0.000000000000000000 ) ) ;
#276 = VERTEX_POINT ( 'NONE', #62 ) ;
#277 = CARTESIAN_POINT ( 'NONE',  ( -10.00000000000000178, -9.999999999999996447, 10.00000000000000000 ) ) ;
#278 = CARTESIAN_POINT ( 'NONE',  ( 10.00000000000000000, 10.00000000000000000, -10.00000000000000000 ) ) ;
#279 = EDGE_CURVE ( 'NONE', #269, #276, #244, .T. ) ;
#280 =( LENGTH_UNIT ( ) NAMED_UNIT ( * ) SI_UNIT ( .MILLI., .METRE. ) );
#281 = EDGE_CURVE ( 'NONE', #312, #193, #56, .T. ) ;
#282 = CARTESIAN_POINT ( 'NONE',  ( 10.00000000000000000, 10.00000000000000000, 10.00000000000000000 ) ) ;
#283 = COORDINATED_UNIVERSAL_TIME_OFFSET ( 8, 0, .AHEAD. ) ;
#284 = ORIENTED_EDGE ( 'NONE', *, *, #301, .F. ) ;
#285 = EDGE_CURVE ( 'NONE', #69, #291, #84, .T. ) ;
#286 = EDGE_LOOP ( 'NONE', ( #185, #272, #267, #64 ) ) ;
#287 = APPLICATION_PROTOCOL_DEFINITION ( 'international standard', 'config_control_design', 1994, #71 ) ;
#288 = EDGE_LOOP ( 'NONE', ( #237, #114, #98, #43 ) ) ;
#289 = EDGE_LOOP ( 'NONE', ( #67, #139, #209 ) ) ;
#290 = ADVANCED_FACE ( 'NONE', ( #179 ), #8, .F. ) ;
#291 = VERTEX_POINT ( 'NONE', #242 ) ;
#292 = CARTESIAN_POINT ( 'NONE',  ( -9.999999999999998224, -10.00000000000000000, 10.00000000000000000 ) ) ;
#293 = ADVANCED_FACE ( 'NONE', ( #262 ), #4, .F. ) ;
#294 = FACE_OUTER_BOUND ( 'NONE', #153, .T. ) ;
#295 = AXIS2_PLACEMENT_3D ( 'NONE', #299, #151, #261 ) ;
#296 = VECTOR ( 'NONE', #300, 1000.000000000000000 ) ;
#297 = CARTESIAN_POINT ( 'NONE',  ( 10.00000000000000178, 9.999999999999998224, -10.00000000000000000 ) ) ;
#298 = DIRECTION ( 'NONE',  ( -0.7071067811865475727, -0.7071067811865474617, 0.000000000000000000 ) ) ;
#299 = CARTESIAN_POINT ( 'NONE',  ( 0.000000000000000000, 0.000000000000000000, -10.00000000000000000 ) ) ;
#300 = DIRECTION ( 'NONE',  ( -0.000000000000000000, 0.000000000000000000, -1.000000000000000000 ) ) ;
#301 = EDGE_CURVE ( 'NONE', #95, #312, #240, .T. ) ;
#302 = APPROVAL_STATUS ( 'not_yet_approved' ) ;
#303 = LOCAL_TIME ( 11, 18, 22.00000000000000000, #41 ) ;
#304 = PLANE ( 'NONE',  #170 ) ;
#305 = PERSON_AND_ORGANIZATION ( #92, #81 ) ;
#306 = MECHANICAL_CONTEXT ( 'NONE', #310, 'mechanical' ) ;
#307 = VECTOR ( 'NONE', #166, 1000.000000000000000 ) ;
#308 = VERTEX_POINT ( 'NONE', #183 ) ;
#309 = APPROVAL_PERSON_ORGANIZATION ( #213, #255, #88 ) ;
#310 = APPLICATION_CONTEXT ( 'configuration controlled 3d designs of mechanical parts and assemblies' ) ;
#311 = APPROVAL_STATUS ( 'not_yet_approved' ) ;
#312 = VERTEX_POINT ( 'NONE', #177 ) ;
#313 = EDGE_CURVE ( 'NONE', #312, #308, #37, .T. ) ;
#314 = ORIENTED_EDGE ( 'NONE', *, *, #18, .T. ) ;
#315 = DIRECTION ( 'NONE',  ( -0.7071067811865475727, -0.7071067811865474617, 0.000000000000000000 ) ) ;
#316 = VECTOR ( 'NONE', #234, 1000.000000000000000 ) ;
#317 = COORDINATED_UNIVERSAL_TIME_OFFSET ( 8, 0, .AHEAD. ) ;
#318 = DIRECTION ( 'NONE',  ( 0.000000000000000000, 1.000000000000000000, 0.000000000000000000 ) ) ;
#319 = CC_DESIGN_DATE_AND_TIME_ASSIGNMENT ( #143, #116, ( #215 ) ) ;
#320 = DIRECTION ( 'NONE',  ( 0.000000000000000000, -0.000000000000000000, 1.000000000000000000 ) ) ;
#321 = CARTESIAN_POINT ( 'NONE',  ( -10.00000000000000178, -9.999999999999996447, 10.00000000000000000 ) ) ;
ENDSEC;
END-ISO-10303-21;
